Make your own free website on Tripod.com


Author/Artist: Robert La Rocca/Ancestor
Title: Right to Life
Album: Ancestor copyright 2000
Transcribed by: Robert La Rocca
Your low string will be tuned to Bflat, and the others
tuned relative to that.  The first riff has a triplet feel. 
The speed riff is 32nd notes.

---------------------------------------------------|--------------------------
---------------------------------------------------|--------------------------
-2-------------------------------------------------|--------------------------
-2-------------------------------------------------|--------------------------
-0----------------------------------------------1--|--------------------------
----0-0-0--0-0-0--0-0-0--3-0-0--0-0-0--6-0-0--3---1|--------------------------
                                                                              

----------------------------------------------------|-------------------------
----------------------------------------------------|-------------------------
-2--------------------------------------------------|-------------------------
-2--------------------------------------------------|-------------------------
-0----------------------------------------------1---|-------------------------
----0-0-0--0-0-0--0-0-0--3-0-0--0-0-0--6-\----3---1-|-------------------------
                                                                              

------------------------------------------------------||----------------------
------------------------------------------------------||----------------------
-2------2------2------2------2------2------2------2---||----------------------
-2--3---2--3---2--3---2--3---2--3---2--3---2--3---2--3||----------------------
-0--3---0--3---0--3---0--3---0--3---0--3---0--3---0--3||----------------------
----1------1------1------1------1------1------1------1||----------------------
 These chords are played as 1/2 notes.                                        

------------------------------------|------------------------------------||---
------------------------------------|------------------------------------||---
------------------------------------|------------------------------------||---
------------------------------------|------------------------------------||---
-5--7-8---4--5-7---1--5-1---0-4-5-7-|-5--7-8---4--5-7---1--5-1---4-5-7-4-||---
------------------------------------|------------------------------------||---
 32nd notes.  Notes w/2 dashes after them are played 16x, 1 dash played 8x.   

-----------------------------------------|------------------------------------
-----------------------------------------|------------------------------------
-----------------------------------------|------------------------------------
-----------------------------------------|------------------------------------
-8--10-12---7--8-10---5--8-5---4-7-8-10--|-8--10-12---7--8-10---5--8-5---7-8--
-----------------------------------------|------------------------------------
                                                                              

-----||-----------------------------------------------------------------------
-----||-----------------------------------------------------------------------
-----||-----------------------------------------------------------------------
-----||-----------------------------------------------------------------------
-10-8||-----------------------------------------------------------------------
-----||-----------------------------------------------------------------------
 The harmony speed part.  Also 32nd notes, same notation.                     

--------------------------------------------|---------------------------------
--------------------------------------------|---------------------------------
--------------------------------------------|---------------------------------
-------------------------------------------v|---------------------------------
-0-4-0-5-0-7-0-8-0-7-0-5-0-4-0-5-0-7-0-8-0-7|---------------------------------
--------------------------------------------|---------------------------------
                                                                              

--------------------------------------------|---------------------------------
--------------------------------------------|---------------------------------
--------------------------------------------|---------------------------------
-------------------------------------------v|---------------------------------
-0-4-0-5-0-7-0-8-0-7-0-5-0-4-0-5-0-4-0-1-0-1|---------------------------------
--------------------------------------------|---------------------------------
 2nd guitar part to be played simultaneously with A and F chords above.       


Download Right to Life tab

Download Forever tab